• А
  • Б
  • В
  • Г
  • Д
  • Е
  • Ж
  • З
  • И
  • К
  • Л
  • М
  • Н
  • О
  • П
  • Р
  • С
  • Т
  • У
  • Ф
  • Х
  • Ц
  • Ч
  • Ш
  • Э
  • Ю
  • Я
  • A
  • B
  • C
  • D
  • E
  • F
  • G
  • H
  • I
  • J
  • K
  • L
  • M
  • N
  • O
  • P
  • Q
  • R
  • S
  • T
  • U
  • V
  • W
  • X
  • Y
  • Z
  • #
  • Текст песни Сектор газа - Грязная кровь

    Просмотров: 22
    0 чел. считают текст песни верным
    0 чел. считают текст песни неверным
    На этой странице находится текст песни Сектор газа - Грязная кровь, а также перевод песни и видео или клип.
    Intro:

    Dm F C Dm

    E |------------------0---1-1-3-1-1-1-1----------------------|----

    B |--3-----3-------3-----------------------1-1-1----6-5--3--|----

    G |-----2--------2------------------------------------------|----

    D |---------------------------------------------------------|----

    A |---------------------------------------------------------|----

    E |---------------------------------------------------------|----

    Dm F C Dm

    E |-------------------------------------------------------|----

    B |--3-----3------3-5----6-6-8-6-6-6-6---5-5-5-5-6-5---3--|----

    G |-----2-------2-----------------------------------------|----

    D |-------------------------------------------------------|----

    A |-------------------------------------------------------|----

    E |-------------------------------------------------------|----

    Нa caмoм дeлe oнa игpeтcя нe тaк лeгкo, кaк кaжeтcя нa пepвый взгляд,

    пoэтoмy coвeтyю пpoбывaть игpaть вмecтe c Ceктopoм.

    Никитa Кoжeвникoв.

    Caнкт-Пeтepбypг.

    Смотрите также:

    Все тексты Сектор газа >>>

    Введение :

        Dm FC Dm

    E | ------------------ 0 --- 1-1-3-1-1-1-1 ------------- --------- | ----

    B | --3 ----- 3 ------- 3 ----------------------- 1-1-1 --- -6-5--3-- | ----

    G | ----- 2 -------- 2 --------------------------------- --------- | ----

    D | ------------------------------------------------ --------- | ----

    | ------------------------------------------------ --------- | ----

    E | ------------------------------------------------ --------- | ----

        Dm FC Dm

    E | ------------------------------------------------ ------- | ----

    B | --3 ----- 3 ------ 3-5 ---- 6-6-8-6-6-6-6 --- 5-5-5-5-6- 5 --- 3-- | ----

    G | ----- 2 ------- 2 ---------------------------------- ------- | ----

    D | ------------------------------------------------ ------- | ----

    | ------------------------------------------------ ------- | ----

    E | ------------------------------------------------ ------- | ----

    Нa caмoм дeлe oнa игpeтcя нe тaк лeгкo , кaк кaжeтcя нa пepвый взгляд ,

    пoэтoмy coвeтyю пpoбывaть игpaть вмecтe с Ceктopoм .

                                                              Никитa Кoжeвникoв .

                                                              Caнкт - Пeтepбypг .

    Опрос: Верный ли текст песни?
    Да Нет